Make your own free website on Tripod.com
tabs

Bled for Days
Transcribed by Obscured@san.rr.com
Http://home.san.rr.com/obscured/corrosive.htm

Tuning: C G C F A D

INTRO

x8
|-----------------------|
|-----------------------|
|-----------------------|
|-0h2--0h2--0h2--0-2----|
|-0h2--0h2--0h2--0-2----|
|-0h2--0h2--0h2--0-2----|
pm. . . . .

x4
|---------------|
|---------------|
|---------------|
|-3---0-3--0----|
|-3---0-3--0----|
|-3---0-3--0----|


VERSE - Guitars tacet first 4 bars


|-------------------------------------|
|--------6--------6--------6----------|
|--------5--------5--------5----------|
|-2------3-2------3-2------3-2--------|
|-2------3-2------3-2------3-2--------|
|-2------3-2------3-2------3-2--------|

|-------------------------------------|
|-------------------------------------|
|-------------------------------------|
|-2--------2--------2--------2--------|
|-2--------2--------2--------2--------|
|-2--------2--------2--------2--------|

|-------------------------------------|
|--------6--------6--------6----------|
|--------5--------5--------5----------|
|-2------3-2------3-2------3-2--------|
|-2------3-2------3-2------3-2--------|
|-2------3-2------3-2------3-2--------|

PRECHORUS
|-------------------------------------|
|-------------------------------------|
|-------------------------------------|
|-3--------3--------3--------3--------|
|-3--------3--------3--------3--------|
|-3--------3--------3--------3--------|

BRIDGE - Play the following twice
|-------------------------------------------------|
|-------------------------------------------------|
|-9--9--9--9--9--9--9--9--9--9--9--9--9--9--9--9--|
|-------------------------------------------------|
|-7--7--7--7--7--7--7--7--7--7--7--7--7--7--7--7--|
|-------------------------------------------------|

|-------------------------------------------------|
|-------------------------------------------------|
|-10-10-10-10-10-10-10-10-10-10-10-10-10-10-10-10-|
|-------------------------------------------------|
|-8--8--8--8--8--8--8--8--8--8--8--8--8--8--8--8--|
|-------------------------------------------------|

PRECHORUS 2
|-------------------------------------|
|-------------------------------------|
|-------------------------------------|
|-3--------3--------3--------3--------|
|-3--------3--------3--------3--------|
|-3--------3--------3--------3--------|

BRIDGE 2 - Play the following twice
|-------------------------------------------------|
|-------------------------------------------------|
|-9--9--9--9--9--9--9--9--9--9--9--9--9--9--9--9--|
|-------------------------------------------------|
|-7--7--7--7--7--7--7--7--7--7--7--7--7--7--7--7--|
|-------------------------------------------------|

|-------------------------------------------------|
|-------------------------------------------------|
|-10-10-10-10-10-10-10-10-10-10-10-10-10-10-10-10-|
|-------------------------------------------------|
|-8--8--8--8--8--8--8--8--8--8--8--8--8--8--8--8--|
|-------------------------------------------------|

Then play this
x4
|-----------------------|
|-----------------------|
|-----------------------|
|-0h2--0h2--0h2--0-2----|
|-0h2--0h2--0h2--0-2----|
|-0h2--0h2--0h2--0-2----|
pm. . . . .


VERSE 2
|-------------------------------------|
|-------------------------------------|
|-------------------------------------|
|-2--------2--------2--------2--------|
|-2--------2--------2--------2--------|
|-2--------2--------2--------2--------|

|---------------------------------|
|--------6--------6--------6------|
|--------5--------5--------5------|
|-2------3-2------3-2------3-2----|
|-2------3-2------3-2------3-2----|
|-2------3-2------3-2------3-2----|

x4
|---------------|
|---------------|
|---------------|
|-3---0-3--0----|
|-3---0-3--0----|
|-3---0-3--0----|

BRIDGE 3 - Play the following four times
|-------------------------------------------------|
|-------------------------------------------------|
|-9--9--9--9--9--9--9--9--9--9--9--9--9--9--9--9--|
|-------------------------------------------------|
|-7--7--7--7--7--7--7--7--7--7--7--7--7--7--7--7--|
|-------------------------------------------------|

|-------------------------------------------------|
|-------------------------------------------------|
|-10-10-10-10-10-10-10-10-10-10-10-10-10-10-10-10-|
|-------------------------------------------------|
|-8--8--8--8--8--8--8--8--8--8--8--8--8--8--8--8--|

|-------------------------------------------------|
Then play this
x8
|-----------------------|
|-----------------------|
|-----------------------|
|-0h2--0h2--0h2--0-2----|
|-0h2--0h2--0h2--0-2----|
|-0h2--0h2--0h2--0-2----|
pm. . . . .

CHORUS/OUTRO - Play the following four times
|-------------------------------------------------|
|-------------------------------------------------|
|-9--9--9--9--9--9--9--9--9--9--9--9--9--9--9--9--|
|-------------------------------------------------|
|-7--7--7--7--7--7--7--7--7--7--7--7--7--7--7--7--|
|-------------------------------------------------|

|-------------------------------------------------|
|-------------------------------------------------|
|-10-10-10-10-10-10-10-10-10-10-10-10-10-10-10-10-|
|-------------------------------------------------|
|-8--8--8--8--8--8--8--8--8--8--8--8--8--8--8--8--|
|-------------------------------------------------|

End on
|-------|
|-------|
|-10----|
|-------|
|-8-----|
|-------|


*Push It*
Transcribed by Obscured@san.rr.com
Http://home.san.rr.com/obscured/corrosive.htm
Tuning: C G C F A D

INTRO
x8
|--------------|
|--------------|
|-20----20-----|
|--------------|
|-18----18-----|
|-----0----0---|

x7
|-----------------|
|-----------------|
|-----------------|
|-0-0-3-0-0-0-3---|
|-0-0-3-0-0-0-3---|
|-0-0-3-0-0-0-3---|

^sustain this on the 4th bar only
|------------|
|------------|
|-8----8-----|
|------------|
|-6----6-----|
|----0---0---|
VERSE
x8
|-----------------|
|-----------------|
|-----------------|
|-0-0-3-0-0-0-3---|
|-0-0-3-0-0-0-3---|
|-0-0-3-0-0-0-3---|

CHORUS
x7
|-----------------|
|-----------------|
|-----------------|
|-0-0-3-0-0-0-3---|
|-0-0-3-0-0-0-3---|
|-0-0-3-0-0-0-3---|

Play this the last time
|-----------------|
|-----------------|
|-----------------|
|-3-0-0-3-0-0-3---|
|-3-0-0-3-0-0-3---|
|-3-0-0-3-0-0-3---|

VERSE 2
x8
|-----------------|
|-----------------|
|-----------------|
|-0-0-3-0-0-0-3---|
|-0-0-3-0-0-0-3---|
|-0-0-3-0-0-0-3---|
CHORUS 2 - Same
x7
|-----------------|
|-----------------|
|-----------------|
|-0-0-3-0-0-0-3---|
|-0-0-3-0-0-0-3---|
|-0-0-3-0-0-0-3---|
Play this on the last time

|-----------------|
|-----------------|
|-----------------|
|-3-0-0-3-0-0-3---|
|-3-0-0-3-0-0-3---|
|-3-0-0-3-0-0-3---|

pm...........

BRIDGE
x8
|--------------|
|--------------|
|-20----20-----|
|--------------|
|-18----18-----|
|-----0----0---|

x3
|-------------13------|
|-------------16b18---|
|---------------------|
|-0-0-3-0-0-0---------|
|-0-0-3-0-0-0---------|
|-0-0-3-0-0-0---------|
pm...........

|-----------------|
|-----------------|
|-----------------|
|-0-0-3-0-0-0-3---|
|-0-0-3-0-0-0-3---|
|-0-0-3-0-0-0-3---|
pm...........

x8
|--------------|
|--------------|
|-20----20-----|
|--------------|
|-18----18-----|
|-----0----0---|

INTERLUDE |-------------------|
|-------------------|
|-------------------|
|-3--------1--------|
|-3--------1--------|
|-3--------1--------|

x4
|-----------------|
|-----------------|
|-----------------|
|-0-0-3-0-0-0-3---|
|-0-0-3-0-0-0-3---|
|-0-0-3-0-0-0-3---|

|-------------------|
|-------------------|
|-------------------|
|-3--------1--------|
|-3--------1--------|
|-3--------1--------|

CHORUS 3/OUTRO
x7
|-----------------|
|-----------------|
|-----------------|
|-0-0-3-0-0-0-3---|
|-0-0-3-0-0-0-3---|
|-0-0-3-0-0-0-3---|

|-----------------|
|-----------------|
|-----------------|
|-3-0-0-3-0-0-3---|
|-3-0-0-3-0-0-3---|
|-3-0-0-3-0-0-3---|
x7
|-----------------|
|-----------------|
|-----------------|
|-0-0-3-0-0-0-3---|
|-0-0-3-0-0-0-3---|
|-0-0-3-0-0-0-3---|

And end on this
|-----------------|
|-----------------|
|-----------------|
|-3-0-0-3-0-0-3---|
|-3-0-0-3-0-0-3---|
|-3-0-0-3-0-0-3---|
pm...........